This is going to Sound Weird

This is the place to talk about guitar playing not done by Dave! Topics about techniques, styles, theory, and other guitarists go here.

Moderators: onid41, jkanter

User avatar
Rweden36
DMBTabs.com Regular
Posts: 229
Joined: Thu Feb 19, 2004 5:06 pm
Location: La Crescenta California
Contact:

This is going to Sound Weird

Unread post by Rweden36 » Sat Nov 27, 2004 6:22 pm

I know this is going to sound kind of odd, but what key is the "King of the Hill"
theme song in? any help would be greatly appreciated :D
-Rory

"Gertrude the parrot doesn't like dogs...well that's crazy"

User avatar
kcw
DMBTabs.com Regular
Posts: 483
Joined: Tue Jul 13, 2004 10:35 am
Location: Maryland
Contact:

Unread post by kcw » Sat Nov 27, 2004 6:35 pm

Intro (really only two chords) is in A and the rest is in E.....I know it if you would like me to write it out
"A good friend stabs you in the front"

-Oscar Wilde

User avatar
Rweden36
DMBTabs.com Regular
Posts: 229
Joined: Thu Feb 19, 2004 5:06 pm
Location: La Crescenta California
Contact:

Unread post by Rweden36 » Sat Nov 27, 2004 7:54 pm

I know how to play it, I just wanted to know what key it was in
-Rory

"Gertrude the parrot doesn't like dogs...well that's crazy"

methusula
Posts: 3
Joined: Mon Oct 25, 2004 5:01 pm

Unread post by methusula » Sat Nov 27, 2004 11:06 pm

the way i play it, it is in E.

Easy E
DMBTabs.com Authority
Posts: 43642
Joined: Thu Jan 30, 2003 2:24 pm
Political views: All the world, is schlach.
Location: Norwalk, CT
Contact:

Unread post by Easy E » Sun Nov 28, 2004 2:59 pm

what a fun song to play too
Cor wrote:I mentioned awhile ago trying to bang this huge near 7 foot woman I know. Hit it last night. I got manhandled, it was sweet.

User avatar
6_strings_for_life
DMBTabs.com Authority
Posts: 1162
Joined: Wed Feb 04, 2004 5:22 pm
Location: Pennsylvania
Contact:

Unread post by 6_strings_for_life » Sun Nov 28, 2004 5:54 pm

tab anyone??
-Scott

Martin D-2R (618256)

http://www.myspace.com/scotttokarz

Time is just a melody...

User avatar
kcw
DMBTabs.com Regular
Posts: 483
Joined: Tue Jul 13, 2004 10:35 am
Location: Maryland
Contact:

Unread post by kcw » Tue Nov 30, 2004 9:22 pm

King Of The Hill

Intro:
E----0-0----------------------------
B----2-2-----------------------------
G----2-2----2-2-----------------------
D----2-2----2-2-----------------------
A--0-0-0----2-2-------------------------
E----------0-0-0------------------------

(strum appropriatly)
part 1
E---------------
B---------------
G---------------
D---------------
A--2-6-7-11-9-
E--0-4-5-9--7-

part 2
E-------------------
B-------------------
G-------------------
D------------------
A--2-6-7-6-4-6-4-
E--0-4-5-4-2-4-2-

repeat part 1
Part 3
E----------------------
B------------------------
G-----------------------
D------------------------
A--14--11-9-7-6-4-2---
E--12--9--7--5-4-2-0--

Part 4
E------------------------
B------------------------
G------------------------
D---6--------------------
A---4-6-7-9-------------
E-----4-5-7-------------


repeat part 1
repeat part 3

E-------------------------------
B--------------------------------
G--4-4-----------------------------
D--2-2-----------------------------
A----------------------------------
E----------------------------------

Sorry the tab is a little crooked.
"A good friend stabs you in the front"

-Oscar Wilde

User avatar
dmfollower
DMBTabs.com Authority
Posts: 2619
Joined: Fri Oct 18, 2002 4:12 pm
Location: bend, or.
Contact:

Unread post by dmfollower » Tue Nov 30, 2004 9:28 pm

Woo hoo! :lol:
"They called it Aspen because "buttpencil" was already taken."

--my little brother(stoned 1st time :) )

"A commom mistake that people make when trying to design something completely foolproof is underestimating the ingenuity of complete fools." --Ford Prefect

"Don't forget to bring a towel." --Towlie

User avatar
6_strings_for_life
DMBTabs.com Authority
Posts: 1162
Joined: Wed Feb 04, 2004 5:22 pm
Location: Pennsylvania
Contact:

Unread post by 6_strings_for_life » Tue Nov 30, 2004 10:29 pm

thank you
-Scott

Martin D-2R (618256)

http://www.myspace.com/scotttokarz

Time is just a melody...

User avatar
Coldchillin
DMBTabs.com Authority
Posts: 44186
Joined: Thu Aug 07, 2003 2:48 pm
Political views: Moderate
Random movie quote to make you seem hip and "with it": Big Gulps huh? Alright...Welp! See you later!
Location: Pennsylvania

Unread post by Coldchillin » Tue Nov 30, 2004 10:33 pm

kcw wrote:King Of The Hill

Intro:
E----0-0----------------------------
B----2-2-----------------------------
G----2-2----2-2-----------------------
D----2-2----2-2-----------------------
A--0-0-0----2-2-------------------------
E----------0-0-0------------------------

(strum appropriatly)
part 1
E---------------
B---------------
G---------------
D---------------
A--2-6-7-11-9-
E--0-4-5-9--7-

part 2
E-------------------
B-------------------
G-------------------
D------------------
A--2-6-7-6-4-6-4-
E--0-4-5-4-2-4-2-

repeat part 1
Part 3
E----------------------
B------------------------
G-----------------------
D------------------------
A--14--11-9-7-6-4-2---
E--12--9--7--5-4-2-0--

Part 4
E------------------------
B------------------------
G------------------------
D---6--------------------
A---4-6-7-9-------------
E-----4-5-7-------------


repeat part 1
repeat part 3

E-------------------------------
B--------------------------------
G--4-4-----------------------------
D--2-2-----------------------------
A----------------------------------
E----------------------------------

Sorry the tab is a little crooked.
The second chord in the intro is supposed to be an E
-Jonathan

PSN and Steam: BietzMe
Switch: SW-2909-9782-5774

User avatar
kcw
DMBTabs.com Regular
Posts: 483
Joined: Tue Jul 13, 2004 10:35 am
Location: Maryland
Contact:

Unread post by kcw » Thu Dec 02, 2004 7:06 pm

dude that is an E
"A good friend stabs you in the front"

-Oscar Wilde

User avatar
dmbguitar718
DMBTabs.com Authority
Posts: 2354
Joined: Tue Oct 01, 2002 3:09 pm
Location: CT

Unread post by dmbguitar718 » Thu Dec 02, 2004 7:09 pm

an e sus, so technically not really. an e is 022100
Pat McInnis

User avatar
kcw
DMBTabs.com Regular
Posts: 483
Joined: Tue Jul 13, 2004 10:35 am
Location: Maryland
Contact:

Unread post by kcw » Thu Dec 02, 2004 10:14 pm

They sound almost identical. A little difference but not much.
"A good friend stabs you in the front"

-Oscar Wilde

User avatar
DMBFan63
DMBTabs.com Authority
Posts: 4800
Joined: Sun Jun 01, 2003 6:57 am
Location: Bellmawr, NJ
Contact:

Unread post by DMBFan63 » Thu Dec 02, 2004 10:25 pm

kcw wrote:They sound almost identical. A little difference but not much.
I can hear a killer difference in an E and Esus..Esus is much brighter
Shows Been to: 7-17-02, 12-15-03, 7-20-04, 7-5/6-05

Easy E
DMBTabs.com Authority
Posts: 43642
Joined: Thu Jan 30, 2003 2:24 pm
Political views: All the world, is schlach.
Location: Norwalk, CT
Contact:

Unread post by Easy E » Fri Dec 03, 2004 1:12 pm

its definitely an E
Cor wrote:I mentioned awhile ago trying to bang this huge near 7 foot woman I know. Hit it last night. I got manhandled, it was sweet.

Post Reply

Return to “General Guitar Discussion”

Who is online

Users browsing this forum: No registered users and 91 guests