All along the watchtower

Topics about musical instruments other than guitar should go here. There's bound to be a Carter, LeRoi, or Yo-Yo Ma out there.

Moderators: onid41, jkanter

Post Reply
User avatar
JazzBassist114
DMBTabs.com Regular
Posts: 247
Joined: Mon Oct 11, 2004 5:49 pm
Location: PA
Contact:

All along the watchtower

Unread post by JazzBassist114 » Tue Jan 18, 2005 10:49 pm

could someone help me please? i would like to figure out the intro to AATW from the central park concert, but i suck at tabbing. I got as far as the starspangledbanner, but then gave up. i cant do the part where stefan has the gain and is just soloing over dave? I would give my complete and utter respect to anyone who feels like tabbing that. please. thanx
~Matt~

Ultinam Barbari Spatium Proprium Tuum Invadant.
~may barbarians invade your personal space.

"In your face! In your face!"
"In my face! In my face"

User avatar
GSR
DMBTabs.com Authority
Posts: 37579
Joined: Tue Dec 31, 2002 7:30 pm

Unread post by GSR » Wed Jan 19, 2005 10:15 am

search for it, i think it's been done.
Andrew

User avatar
6_strings_for_life
DMBTabs.com Authority
Posts: 1162
Joined: Wed Feb 04, 2004 5:22 pm
Location: Pennsylvania
Contact:

Unread post by 6_strings_for_life » Wed Jan 26, 2005 9:57 am

ehh im in class, i have the tab saved on my desktop at home, ill post it as soon as I get there.. hhaha if i can remember
-Scott

Martin D-2R (618256)

http://www.myspace.com/scotttokarz

Time is just a melody...

Kukini
DMBTabs.com Authority
Posts: 3562
Joined: Sat Jul 17, 2004 11:03 pm

Unread post by Kukini » Wed Jan 26, 2005 12:15 pm

removed for asswadiness.
Last edited by Kukini on Wed Jan 26, 2005 12:42 pm, edited 1 time in total.
- Marq

User avatar
DMBFan63
DMBTabs.com Authority
Posts: 4800
Joined: Sun Jun 01, 2003 6:57 am
Location: Bellmawr, NJ
Contact:

Unread post by DMBFan63 » Wed Jan 26, 2005 12:23 pm

Kukini wrote:

Code: Select all

All Along The Watchtower 
Dave Matthews Band 
The Central Park Concert 

Intro 

e|---------------------|---------------|---------|-------| 
b|---0h1-1-----0-------|---0h1-0-------|-----1---|---1-3-| 
g|-----------------0---|-------------0-|---------|-------| 
d|---0h2-2-2-----0-----|---0h2-0---0---|-----2---|---2-3-| 
a|-0---------0-------0-|---------------|---------|-------| 
E|---------------------|-3-------3-----|-1-1---1-|-1-----| 

e|---------------------|---------------|-----------|-------| 
b|---0h1-1-1---0-----0-|---0h1-0-----0-|-------1---|---1-3-| 
g|---------------------|---------0-----|-----------|-------| 
d|---0h2-2-2-----0-----|---0h2-0-------|-----2-----|---2-3-| 
a|-0---------0-----0---|---------------|-----------|-------| 
E|---------------------|-3---------3---|-1-1-----1-|-1-----| 

e|---------------------|---------------|---------|---------| 
b|---0h1-0-----0-----0-|---0h1-0-----0-|-----1---|---1-x-3-| 
g|---------------0-----|---------0-----|---------|---------| 
d|---0h2-0-0-----------|---0h2-0-------|---------|---2-x-3-| 
a|-0---------0-----0---|---------------|---------|---------| 
E|---------------------|-3---------3---|-1-1---1-|-1-------| 

e|---------------------|---------------|-----------|-------| 
b|---0h1-1-1---0-----0-|---0h1-0-----0-|-------1---|---1-3-| 
g|---------------------|---------0-----|-----------|-------| 
d|---0h2-2-2-----0-----|---0h2-0-------|-----2-----|---2-3-| 
a|-0---------0-----0---|---------------|-----------|-------| 
E|---------------------|-3---------3---|-1-1-----1-|-1-----| 

e|---------------------|-----------------|-----|-| 
b|---0h1-1-----0-----0-|---0-0h1-0-----0-|---1-|-| 
g|---------------------|-----------------|-----|-| 
d|---0h2---2-----0-----|-----0h2---0-----|---2-|-| 
a|-0---------0-----0---|-----------------|-----|-| 
E|---------------------|-3-----------3---|-1---|-| 
Thanks to worrman for that.
Look at what forum we're in..Now think..don't you think he wants the bass tab?
Shows Been to: 7-17-02, 12-15-03, 7-20-04, 7-5/6-05

Kukini
DMBTabs.com Authority
Posts: 3562
Joined: Sat Jul 17, 2004 11:03 pm

Unread post by Kukini » Wed Jan 26, 2005 12:42 pm

I suck at life.
- Marq

gumbomadness
DMBTabs.com Authority
Posts: 1893
Joined: Sun Jun 13, 2004 12:29 pm
Location: South Florida
Contact:

Unread post by gumbomadness » Wed Jan 26, 2005 4:16 pm

DMBFan63 wrote:
Kukini wrote:

Code: Select all

All Along The Watchtower 
Dave Matthews Band 
The Central Park Concert 

Intro 

e|---------------------|---------------|---------|-------| 
b|---0h1-1-----0-------|---0h1-0-------|-----1---|---1-3-| 
g|-----------------0---|-------------0-|---------|-------| 
d|---0h2-2-2-----0-----|---0h2-0---0---|-----2---|---2-3-| 
a|-0---------0-------0-|---------------|---------|-------| 
E|---------------------|-3-------3-----|-1-1---1-|-1-----| 

e|---------------------|---------------|-----------|-------| 
b|---0h1-1-1---0-----0-|---0h1-0-----0-|-------1---|---1-3-| 
g|---------------------|---------0-----|-----------|-------| 
d|---0h2-2-2-----0-----|---0h2-0-------|-----2-----|---2-3-| 
a|-0---------0-----0---|---------------|-----------|-------| 
E|---------------------|-3---------3---|-1-1-----1-|-1-----| 

e|---------------------|---------------|---------|---------| 
b|---0h1-0-----0-----0-|---0h1-0-----0-|-----1---|---1-x-3-| 
g|---------------0-----|---------0-----|---------|---------| 
d|---0h2-0-0-----------|---0h2-0-------|---------|---2-x-3-| 
a|-0---------0-----0---|---------------|---------|---------| 
E|---------------------|-3---------3---|-1-1---1-|-1-------| 

e|---------------------|---------------|-----------|-------| 
b|---0h1-1-1---0-----0-|---0h1-0-----0-|-------1---|---1-3-| 
g|---------------------|---------0-----|-----------|-------| 
d|---0h2-2-2-----0-----|---0h2-0-------|-----2-----|---2-3-| 
a|-0---------0-----0---|---------------|-----------|-------| 
E|---------------------|-3---------3---|-1-1-----1-|-1-----| 

e|---------------------|-----------------|-----|-| 
b|---0h1-1-----0-----0-|---0-0h1-0-----0-|---1-|-| 
g|---------------------|-----------------|-----|-| 
d|---0h2---2-----0-----|-----0h2---0-----|---2-|-| 
a|-0---------0-----0---|-----------------|-----|-| 
E|---------------------|-3-----------3---|-1---|-| 
Thanks to worrman for that.
Look at what forum we're in..Now think..don't you think he wants the bass tab?
didnt he want the bass tab?
" I give up on this six string shit. "
-DM

User avatar
JazzBassist114
DMBTabs.com Regular
Posts: 247
Joined: Mon Oct 11, 2004 5:49 pm
Location: PA
Contact:

Unread post by JazzBassist114 » Wed Jan 26, 2005 5:23 pm

haha...yes, bass tab would be nice...
~Matt~

Ultinam Barbari Spatium Proprium Tuum Invadant.
~may barbarians invade your personal space.

"In your face! In your face!"
"In my face! In my face"

Dsligh15
Posts: 1
Joined: Thu Jul 26, 2012 5:51 pm

Re: All along the watchtower

Unread post by Dsligh15 » Thu Jul 26, 2012 5:58 pm

Since I've been trying to learn this as well I'm going to attempt to revive this threa because the question never was really answered even though I think plenty of people know this tab. All Along the Watchtower Bass Solo at The Central Park Concert.

Nesomplefore
Posts: 7
Joined: Fri May 06, 2016 6:52 am

Re: All along the watchtower

Unread post by Nesomplefore » Fri Jun 10, 2016 10:27 pm

I would give my complete and utter respect to anyone who feels like tabbing that. please. thanx
there is list of hundred of songs that is absolutely fantastic
taylor swift song list

Post Reply

Return to “Other Instruments”

Who is online

Users browsing this forum: No registered users and 11 guests