Death on the High Seas TABS

So you're amazed as to how Dave's rhythm guitar slaps and strums so "perfectly"...but you can't. Ask all things about Dave and his guitars here.

Moderators: onid41, jkanter

Post Reply
CANADIA15
Posts: 24
Joined: Thu Aug 02, 2007 5:22 pm

Death on the High Seas TABS

Unread post by CANADIA15 » Fri Jun 19, 2015 10:42 pm

Death on the High Seas
Dave Matthews Band

Dave plays this on the piano

not perfect tab, but it's getting there

Audio 6-12-15: https://soundcloud.com/user634503478/da ... as-6-12-15

Code: Select all


Intro / Verse:


"Traded yesterday for tomorrow"
e|---------------------------
B|---------------------------
G|---------------------------
D|--13-12-10----10-12-13-10--
A|-----------13--------------
E|---------------------------

Code: Select all

"It's all used up "
e|------------
B|------------
G|------------
D|--13-12-10--
A|------------
E|------------

Code: Select all

"Like we're floating out to sea / It's like we're living in a dream"
e|---------------------
B|---------------------
G|--------10-/-12-/-10-
D|--13-10--------------
A|---------------------
E|---------------------

Code: Select all

"Message in a plastic bottle / Dinosaurs are waiting for us"
e|-----------------------------------
B|-----------------------------------
G|----------------------------------
D|--13-12-10----10-12-13-10----------
A|-----------13----------------------
E|-----------------------------------

Code: Select all

"Oh baby, baby"
Chorus:
    
E|-----------------
B|-----------------
G|-----------------
D|--5---5---5---5--
A|--5---3---5---3--
E|--3---1---3---1--


Post Reply

Return to “Dave's Guitar Discussion”

Who is online

Users browsing this forum: No registered users and 12 guests