Virginia in the Rain TABS

So you're amazed as to how Dave's rhythm guitar slaps and strums so "perfectly"...but you can't. Ask all things about Dave and his guitars here.

Moderators: onid41, jkanter

Post Reply
CANADIA15
Posts: 24
Joined: Thu Aug 02, 2007 5:22 pm

Virginia in the Rain TABS

Unread post by CANADIA15 » Fri Jun 19, 2015 8:41 pm

Virginia in the Rain
Dave Matthews Band

Dave plays this on the piano, but it can easily be played on guitar.

VIDEO (Song Debut) - 6/12/15 - Hartford, CT:
https://www.youtube.com/watch?v=YA6kCmfRpD0

Code: Select all


Intro / Verse:

e|-----------
B|--8-8-8-8--
G|--5-5-5-5--
D|--8-7-6-5--
A|-----------
E|-----------

Code: Select all


or pick individual notes

e|----------------------
B|----8----8----8----8--
G|--5----5----5----5----
D|---8----7----6----5---
A|----------------------
E|----------------------

Code: Select all

Chorus:

    Gm   F    Dm   C      C
    
E|--3----1----5----3---------
B|--3----1----6----5------1--
G|--3----2----7----5------0--
D|--5----3----7----5--or--2--
A|--5----3----5----3------3--
E|--3----1-------------------


Post Reply

Return to “Dave's Guitar Discussion”

Who is online

Users browsing this forum: No registered users and 90 guests