Request: Dive In Tabs/Help

So you're amazed as to how Dave's rhythm guitar slaps and strums so "perfectly"...but you can't. Ask all things about Dave and his guitars here.

Moderators: onid41, jkanter

Request: Dive In Tabs/Help

Unread postby blueridgeguy » Fri Jun 05, 2009 10:25 pm

Anybody gotten around to this one yet?

Ta

BRG
Itinerarium Exacticum Coeleste
blueridgeguy

 
Posts: 21
Joined: Mon Jun 23, 2003 10:54 pm
Location: Toronto

Re: Request: Dive In Tabs/Help

Unread postby trkoehler » Tue Jun 09, 2009 2:51 pm

hi there, not exactly shure, see for yourself

the verses change but mostly he plays A C E G
the chorus D G Emajor A

don´t know how it helpes you... and correct me if i´m wrong...

greetings from a dmb fan from europe...
trkoehler

 
Posts: 1
Joined: Tue Jun 09, 2009 2:47 pm

Unread postby DJR » Sat Jun 13, 2009 9:13 am

off the top of my head, it's more like this:
verse
Am C Em G

Am C G G/F#

Chorus
D G Em A
-Dennis
User avatar
DJR
DMBTabs.com Authority
 
Posts: 12128
Joined: Wed Sep 17, 2003 3:18 am
Location: Alexandria
Random movie quote to make you seem hip and "with it": Do you use this word? Alcoves?

Unread postby DJR » Tue Jun 16, 2009 7:21 pm

Image
-Dennis
User avatar
DJR
DMBTabs.com Authority
 
Posts: 12128
Joined: Wed Sep 17, 2003 3:18 am
Location: Alexandria
Random movie quote to make you seem hip and "with it": Do you use this word? Alcoves?

Re: Request: Dive In Tabs/Help

Unread postby greppson » Sat Nov 13, 2010 12:35 pm

after listening to the solo version from last night at MSG, i'm gonna venture a makeshift tab for most of the song. it's not completely correct as there is one phrase that i am not getting the right progression, but here's what i got.

Code: Select all
Dive In
Dave Matthews (solO)

Intro (repeat a few times)

E:---------------
B:---1--1-----1--
G:---2--2-----0--
D:---2--2-----2--
A:---------2--3--
E:---------------


Verse (there is a secondary verse that I haven't quite figured out yet, used at the end of this on some of the lyrical lines before coming back to this)

E:------------------3--
B:---1--1-----1-----0--
G:---2--2-----0-----0--
D:---2--2-----2--2--0--
A:---------2--3--2--2--
E:------------------3--

when leading into next lyric/line of verse, walk down from the G on the top string

E:------------------3-----
B:---1--1-----1-----0-----
G:---2--2-----0-----0-----
D:---2--2-----2--2--0-----
A:---------2--3--2--2-----
E:------------------3--2--

Chorus (some combination of D G Em A, drop down to non-barre chords if need be)

E:---5--3--7--5--
B:---3--3--8--5--
G:---0--4--9--6--
D:---4--5--9--7--
A:---5--5--7--7--
E:------3-----5--


Breakdown "One day, do you think we'll wake up"

E:------------3--
B:---1--1--1--0--
G:---2--2--0--0--
D:---3--2--2--0--
A:---------3--2--
E:------------3--

(barre Fmaj could be used for the first chord)
greppson

 
Posts: 10
Joined: Sat Sep 25, 2004 12:48 pm

Re: Request: Dive In Tabs/Help

Unread postby CrazyEasy41 » Sat Nov 13, 2010 2:10 pm

Wow that was extremely fast! Thanks! I'll give it a shot.
CrazyEasy41

 
Posts: 5
Joined: Sat Feb 07, 2009 12:30 pm

Unread postby jek3295 » Sun Nov 14, 2010 12:23 am

http://www.youtube.com/watch?v=S2wK5W9wBJU

looks like he's doing something up the fretboard
jek3295

 
Posts: 8
Joined: Fri Dec 26, 2008 12:27 am

Re: Request: Dive In Tabs/Help

Unread postby greppson » Sun Nov 14, 2010 11:35 am

yeah, i see that now... i'm sure someone will figure it out, but this at least sounds close. :lol
greppson

 
Posts: 10
Joined: Sat Sep 25, 2004 12:48 pm

Re: Request: Dive In Tabs/Help

Unread postby drocks1111 » Thu Nov 18, 2010 10:48 pm

the bridge is F, Am, C, G

He must be doing a different variation down the neck. But at the end he moves back to basic chords up on the neck.
drocks1111

 
Posts: 5
Joined: Sun Apr 06, 2008 11:27 am

Re: Request: Dive In Tabs/Help

Unread postby demar727 » Mon Nov 29, 2010 5:21 pm

from what i can see in the intro

--------------------------
--------------------------
------5-------------------
------7-------------------
---0----------------------
-----------7--8----------

-----------------------------------------
----------------------------------8-----
------5---------------------------------
------7------------------5-------9----
---0---------------------7-------10---
-----------7--8-----0-----------------

with a mixture of the studio tab

chorus
----------------------------------------
----10----10----10---10----10-------
----7------7-----7---------------------
-------------------------------7-------
-----------10----9-----7--------------
----------------------------------------
demar727

 
Posts: 12
Joined: Wed Mar 24, 2004 4:34 pm


Return to Dave's Guitar Discussion

Who is online

Users browsing this forum: No registered users and 2 guests