Why I am tabs

So you're amazed as to how Dave's rhythm guitar slaps and strums so "perfectly"...but you can't. Ask all things about Dave and his guitars here.

Moderators: onid41, jkanter

Why I am tabs

Unread postby TSilk » Fri Apr 17, 2009 12:54 am

has anyone given this song a stab yet? It sounds like a g power chord for the riff then for the end of the riff"it goes C-B, I can't decide if it's like raven with the 8xx9xx then 7xx9xx or 40 with the x3201x - x2001x. Thoughts?
Last edited by TSilk on Fri Apr 17, 2009 1:00 am, edited 1 time in total.
TSilk

 
Posts: 88
Joined: Mon Nov 27, 2006 8:22 pm

Re: Why I am tabs

Unread postby Firedncin8nancy » Fri Apr 17, 2009 12:56 am

looks like he is doing

x35xxx down to x25xxx

according to the videos i've seen on youtube
User avatar
Firedncin8nancy

 
Posts: 54
Joined: Sat Aug 03, 2002 1:33 pm
Location: new city, ny

Re: Why I am tabs

Unread postby TSilk » Fri Apr 17, 2009 1:01 am

Firedncin8nancy wrote:looks like he is doing

x35xxx down to x25xxx

according to the videos i've seen on youtube


Good call, that sounds good, I just didn't know which variation of the C-G and dave uses that all the time (rapunzel). Thanks
TSilk

 
Posts: 88
Joined: Mon Nov 27, 2006 8:22 pm

Re: Why I am tabs

Unread postby Jagon14 » Fri Apr 17, 2009 11:14 am

I haven't seen any of the videos but when I was messing around with it i heard something like a G octave 3x5 and playing it kind of like Immigrant Song something like

D--------5-------------5---------
A---------------------------------
E--3--3----3---3---3-----3------

then to the c b

but i don't have the greatest ear
Jagon14

 
Posts: 3
Joined: Thu Apr 16, 2009 7:30 pm

Unread postby daduke40 » Fri Apr 17, 2009 4:02 pm

D--------5-------------5------------
A--------------------------(0)--3--2
E--3--3----3---3---3---------------

Thats what I have so far. Im pretty positive thats the main riff
daduke40

 
Posts: 41
Joined: Mon Oct 09, 2006 12:19 am

Re: Why I am tabs

Unread postby guitar_frk » Fri Apr 17, 2009 6:13 pm

Edited: Look below for current version.
Last edited by guitar_frk on Mon May 25, 2009 5:46 am, edited 1 time in total.
ants always marching on . . .
guitar_frk

 
Posts: 100
Joined: Mon Sep 19, 2005 7:06 pm
Location: MN

Re: Why I am tabs

Unread postby #41_JTR » Fri Apr 17, 2009 8:06 pm

guitar_frk wrote:I took a stab



looks good! i'm looking forward to trying it out. thanks for tabbing it!
#41_JTR

 
Posts: 12
Joined: Fri Sep 08, 2006 9:54 pm

Re: Why I am tabs

Unread postby mattinbeloit » Sun Apr 19, 2009 3:34 pm

Well, looks like you guys have most of it figured out. A few other things, I came up with the same progression for the intro, that is also played a few times right after he says "still dancing with the groo grux king", it's the momentarily happy little part that makes you think of Bob Ross painting happy little things. The only other part is the chorus part. it's simply F, Am, C, G. Think the "ashes to ashes" part on gravedigger, it's very close except. I think that's the whole song, good job team! If someone is less lazy then I am, they would put all of this together.
-------------------------
jellyfish wrote:Mattinbeloit, you are not relevant.


"If the US Government wants to shove a tracking device up your ass, you say thank you, and God bless America!" -Red, That 70's Show
User avatar
mattinbeloit
DMBTabs.com Authority
 
Posts: 2116
Joined: Tue Dec 28, 2004 1:58 am

Unread postby DMBZeppelin » Wed Apr 29, 2009 7:18 pm

http://pandora.com/davematthewsband

Click on the thumbnail of Carter and watch that vid.

Dave plays all the parts to Why I Am in the middle of the video. They even show him playing it after a minute of hearing it, and it looks a little different then the tabs I've seen.
DMBZeppelin

 
Posts: 82
Joined: Wed Dec 14, 2005 6:34 pm

Re: Why I am tabs

Unread postby guitar_frk » Wed Apr 29, 2009 10:31 pm

Looking at live videos on Youtube, Dave is not playing this:

Code: Select all
Groogrux King
--------------------------
--------------------------
--------5----------7------
-----5----------7-------5-
--3----------5----------5-
------------------------3-


he goes DOWN the neck, but I am not sure what he plays exactly. However, it sounds like Tim might be playing what is tabbed.
ants always marching on . . .
guitar_frk

 
Posts: 100
Joined: Mon Sep 19, 2005 7:06 pm
Location: MN

Re: Why I am tabs

Unread postby grux » Mon May 04, 2009 10:57 am

For the 'Why I am' chord progression, it sounds like he's doing something like this:

---x-----x-----x---
---x-----x-----x---
---9-----7-----4---
---0-----0-----0---
---7-----5-----2---
---8-----7-----3---

Haven't been following the videos, but heard this song for the first time live on Saturday night. COMPLETELY rocked!
grux

 
Posts: 1
Joined: Mon May 04, 2009 10:51 am

Re: Why I am tabs

Unread postby guitar_frk » Mon May 04, 2009 1:45 pm

I think I figured out the "big whiskey" part:

Code: Select all
e|----------
B|----------
G|--9----7--
D|--0----x--
A|--x----5--
E|--8----x--


It's either that or something along the lines of that I saw a video where I could see his hands on the big screen. Since lights were flashing, I couldn't be 100% sure this the exact fingerings. It could be:

Code: Select all
e|----------
B|----------
G|--9----7--
D|--0----7--
A|--7----5--
E|--8----5--


But my gut tells me it's the first one.
ants always marching on . . .
guitar_frk

 
Posts: 100
Joined: Mon Sep 19, 2005 7:06 pm
Location: MN

Unread postby CANADIA15 » Tue May 05, 2009 10:17 am

This looks like what Dave plays after the final chorus following his line "Still dancing with the Groo Grux King"

Code: Select all
e|-----------------
B|-----------------
G|----------5---0--
D|--3---7---5---0--
A|--3---7---3---2--
E|--1---5-------3--


http://www.youtube.com/watch?v=wYeoSv1el0Y
CANADIA15

 
Posts: 22
Joined: Thu Aug 02, 2007 5:22 pm

Re: Why I am tabs

Unread postby tj344573 » Wed May 13, 2009 10:18 pm

its sorta like rapunzel, but the beginning u play low e on 3 and 5 on d and then u move down to rapunzel style. maybe... i sounds like it
tj344573

 
Posts: 1
Joined: Wed May 13, 2009 10:13 pm

Re: Why I am tabs

Unread postby guitar_frk » Mon May 25, 2009 5:46 am

I put this in the BWGK tabs, but I am going to put it here too:

And Edited and Updated tab

Why I Am

Code: Select all
Intro
e|--------------------------------------------------------
B|--------1--------1--------1--------1--------1--------1--
G|-----2--------0--------0--------0--------0--------0-----
D|--3--------2--------0-----------------------------------
A|-----------------------------3--------2--------0--------
E|--------------------------------------------------------

Verse
e|-----------------------------------------
B|-----------------------------------------
G|-----------x-------------x-------x----x--
D|-----x-----5-------------5-------5----5--
A|--x--x--x--x--x----x--x--x--x----3----2--
E|--3--x--3-----3----3--3-----3------------

After the "Groogrux King" line
e|---------------------------------------
B|---------------------------------------
G|-----9------7--------------------------
D|--x--x---x--x---5--- back into verse --
A|--7--7---5--5---x----------------------
E|----------------3----------------------

First chorus is the intro x1

Chorus 2 and 3
e|--------------------------------------------------
B|--------1--------1--------1--------1-----x--------
G|-----2--------0--------0--------0--------x--------
D|--3--------2--------0--------------------x-- X3 --
A|-----------------------------3--------2--x--------
E|--------------------------------------------------

Then

e|--------------------------------------
B|--------1--------1--------1--------0--
G|-----0--------0--------0--------0-----
D|--------------------------------------
A|--0--------3--------2-----------------
E|-----------------------------3--------

Bridge
e|--------------------------------------------------------
B|--------------------------------------------------------
G|--------5-------------5--0----------5-------------5-----
D|--3--7--5--5----3--7--5--2----3--7--5--5----3--7--5--5--
A|--3--7--3--5----3--7--3--2----3--7--3--5----3--7--3--5--
E|--1--5-----3----1--5-----0----1--5-----3----1--5-----3--

Final Riff
e|-------------------------------------------
B|--------1--------1--------1--------1-------
G|-----0--------0--------0--------2----------
D|----------------------------------------5--
A|--0--------3--------2-------------------x--
E|-----------------------------1----------3--
Last edited by guitar_frk on Tue May 26, 2009 6:02 pm, edited 1 time in total.
ants always marching on . . .
guitar_frk

 
Posts: 100
Joined: Mon Sep 19, 2005 7:06 pm
Location: MN

Next

Return to Dave's Guitar Discussion

Who is online

Users browsing this forum: Bing [Bot], Google [Bot] and 3 guests